raymond van het groenewoud - 2 meisjes

Submitted by admin on Vrij, 2006-10-27 21:58.

Afdrukken | Meer songs van raymond van het groenewoud

Informeer de community:
Beoordeel de kwaliteit van de partituur en geef een score!
0
No votes yet
Titel: 2 meisjes 
Artiest: raymond van het groenewoud
Album: 

\D = D bass = -10-X-X-X-X-X-
\C# = Cis Bass = -9-X-X-X-X-X-
\A = A Bass = -5-X-X-X-X-X-
\C = C Bass = -8-X-X-X-X-X-
\Bb = Bes Bass = -7-X-X-X-X-X-
\Ab = As Bass = -4-X-X-X-X-X-
Dm = D Mineur = -X-X-0-2-3-1-
A = A = -X-0-2-2-2-0-
D = D = -X-X-0-2-3-2-
Gm = G Mineur = -3-5-5-3-3-3-
Dm\C = D Mineur, C Bass = -X-3-0-2-3-1-
Bb = Bes = -X-1-3-3-3-1-
E = E = -0-2-2-1-0-0-

--- - Fade out
h   - Hammer on
/   - slide in

Intro:
  “\D”            “\C#””\A”           “\D””\C””\Bb”          “\Ab””\A”          “\D”
e|----------------------------------------------------------------------------------|
B|------10----10-11-----------------11-10-------------------------------------------|
G|---10----10-------12----9-12-9-12-------10-------10----10-12-9---12-10-9----------|
D|----------------------------------------------12----12-------------------12-11-12-|
A|----------------------------------------------------------------------------------|
E|----------------------------------------------------------------------------------|

\D                     \C# \A
Twee meisjes op het strand
              \D  \C \Bb 
Ze lezen modebladen
                 \Ab  \A
Ze kijken in het rond
                   \D
Ze dromen van een prins

Dm | A | D | Gm | A | Dm Dm\C | Bb A | Dm | 2x

  Dm                   A
Twee meisjes op het strand
               Dm Dm\C Bb
Ze lezen modebladen
                  E
Ze kijken in het rond
     A              Dm
Ze dromen van een prins

Ze zoeken in hun tas
Ze wijzen naar de foto's
Ze schudden met hun haar
Ze praten met een vriend

  F                   C
Twee meisjes op een plank
 A                Dm Dm\C Bb
Gedragen door de golven
                    Gm
Het branden van de zon
    E             A
De wijzers houden op

De dag brengt ouderdom
De nacht brengt vreemde uren
Het deken is zo zwaar
Een bladzijde slaat om

Solo: Dm | A | % | Dm Dm\C | Bb | E  | A | Dm   |
      Dm | A | % | Dm Dm\C | Bb | E  | A | Dm C |
      F  | C | A | Dm Dm\C | Bb | Gm | E | A    |
      Dm | A | % | Dm Dm\C | Bb | E  | A | Dm   |
      Dm | A | % | Dm Dm\C | Bb | E  | A | Dm   |
      Dm | A | % | Dm Dm\C | Bb | E  | A | Dm C | 
      F  | C | A | Dm Dm\C | Bb | Gm | E | A    |
      Dm | A | % | Dm Dm\C | Bb | E  | A | Dm   |

Outro: 
  “Dm---“         “\C#”          ”\A”                 “Dm”    ”Dm\C”  
e|---------------------------------------------------------1-------1---|
B|-----10----10-11--------------5------------11-10-----------3-------3-|
G|--10----10-------12----2-4-/6----9-12-9-12-------10----2-------2-----|
D|---------------------2-------------------------------0---------------|
A|-------------------------------------------------------------3-------|
E|---------------------------------------------------------------------|

  ”\Bb”           “E---””\A”          “\D””Dm”
e|-----------------------------------------------0h1-----|
B|---------------------------------------------3-----3---|
G|-----10----10-12-9-----12-10-9-------------2---------2-|
D|--12----12---------------------12-11-12--0-------------|
A|-------------------------------------------------------|
E|-------------------------------------------------------|

  “Dm---“         “\C#”          ”\A”                 “Dm”    ”Dm\C”  
e|---------------------------------------------------------1-------1---|
B|-----10----10-11--------------5------------11-10-----------3-------3-|
G|--10----10-------12----2-4-/6----9-12-9-12-------10----2-------2-----|
D|---------------------2-------------------------------0---------------|
A|-------------------------------------------------------------3-------|
E|---------------------------------------------------------------------|

  ”\Bb”           “E---””\A”          “\D””Dm---”
e|--------------------------------------------1--|
B|-------------------------------------------3---|
G|-----10----10-12-9-----12-10-9------------2----|
D|--12----12---------------------12-11-12--0-----|
A|-----------------------------------------------|
E|-----------------------------------------------|