Willem Vermandere - Duizend soldaten

Submitted by Palladio on Vrij, 2012-04-13 11:13.

Afdrukken | Meer songs van Willem Vermandere

Informeer de community:
Beoordeel de kwaliteit van de partituur en geef een score!
2
Score: (1 stem)
Titel: Duizend soldaten 
Artiest: Willem Vermandere
Album: 

Capo op de 1e fret om mee te spelen met de plaat.
Het hele nummer door wordt hetzelfde akkoordenschema gespeeld; in strofe 3, 4 en 5 wordt er sneller gestrumd.
Tablatuur is uitgeschreven voor standaard EADGBe stemming.


Schema: |Em . . .|CM7 . . .|Am(7) . . .|G . B7 .|


Em
-----------------|-----------------|
-----------------|-----------------|
---0---0-----0---|---0---0-----0---|
-----4---2-----2-|-----4---2-----2-|
-----------2-----|-----------2-----|
-0---------------|-0---------------|


CM7
-----------------|-----------------|
-----------------|-----------------|
---0---0-----0---|---0---0-----0---|
-----4---2-----2-|-----4---2-----2-|
-3---------3-----|-3---------3-----|
-----------------|-----------------|

Am7
-----------------|-----------------|
---0-------0-----|---0-------0-----|
-----5---2---0---|-----5---2---0---|
-------4-------4-|-------4-------4-|
-0---------------|-0---------------|
-----------------|-----------------|

G                 B7
-----------------|-----------------|
---0---0---------|-----------------|
-----2---0---0---|---2---2-----2---|
-----------4---2-|-----4---1-----1-|
-----------------|-2---------2-----|
-3---------------|-----------------|



als ge van ze leven in de westhoek passeert
deur regen en noorderwinden
keert omme den tied als g' alhier passeert
den oorlog ga j' hier were vinden

ja 't is den oorlog da 'j hier were vindt
en 't graf van duizend soldoaten
altied iemands voader altied iemands kind
nu doodstille en godverlaten

laat de bom'n nu maar zwieg'n
en dat 't gras niets verteld
en de wind moet 't ook maar nie zing'n
dat julder'n dood tot niets hè geteld
dat woaren al te schrik'lijke dingen

zeg 't goat al goed der is welvaart in 't land
en de vrede ligt vast in de wetten
we maken wel woapens maar met veel meer verstand
maar just om den oorlog te beletten

en grote raketten atoom in den top
we meugen toch experimenteren
we mikken wel ne keer naar mekaar zijne kop
maar just om ons 't amuseren

als ge van ze leven in de westhoek passeert
deur regen en noorderwinden
keert omme den tied als g' alhier passeert
den oorlog ga j' hier were vinden

ja 't is den oorlog da 'j hier were vindt
en 't graf van duizend soldoaten
altijd iemands voader altijd iemands kind
duizend en duizend soldoaten
duizend en duizend soldoaten
duizend en duizend soldoaten


Indien dat prettiger speelt kan het Am7 akkoord ook zo gespreid worden:
Am7
-----------------|
---0-1-----0-----|
---------2---0---|
-------4-------4-|
-0---------------|
-----------------|

( categories: )